Rock506070

Vous n'êtes pas connecté
Rock506070

L'âge d'or de la musique

Coming soon: rock506070's BLOG!

rock506070's BLOG coming soon.

    Eric Clapton - Tears In Heaven Part 1

    Partagez

    John
    Moderator

    Masculin
    Posts : 159
    Age : 28
    Location : here
    Appreciation : 11
    Joined : 18/08/2007

    Eric Clapton - Tears In Heaven Part 1

    Message  John le Sam 2 Aoû - 16:20:09

    Tears in Heaven Part 1


    Eric Clapton
    Guitare 1



    A E(onG#)
    E||--------------------|-----------------------------|
    B||--------------------|--------2h3p2----5-----5--2--|
    G||--------------------|-----2--------2--4-----4--2--|
    D||--------------------|-----------------------------|
    A||--------------------|--0--------------------------|
    E||----------------0h2-|-----------------4--4-----2--|


    F#m A(onE) D(onF#) E7sus4E7
    -------------------------|-------------------------|
    -------2-----2-----2-----|--3-----3-----3-----3----|
    -------2-----2-----2-----|--2-----2-----2-----1----|
    -------------------------|-------------------------|
    -------------------------|-------------------------|
    ----2-----2--0--0-----0--|--2--2-----2--0--0--0----|


    A A E(onG#)F#m
    ---------------------------|---------------------------|
    --2-----2-----2-----2------|--------2h3p2----5------2--|
    --2-----2-----2-----2------|-----2--------2--4------2--|
    ---------------------------|---------------------------|
    --0--0-----0--0--0--0------|--0------------------------|
    -----------------------0h2-|-----------------4------2--|


    F#m A(onE) D(onF#) A(onE)
    -------------------------|--------------------------|
    -------2-----2-----2-----|--3-----3-----2-----2-----|
    -------2-----2-----2-----|--2-----2-----2-----2-----|
    -------------------------|--------------------------|
    -------------------------|--------------------------|
    ----2-----2--0--0-----0--|--2--2--2--2--0--0-----0--|


    E F#m E(onG#) A E(onG#) F#m
    --------------------------|----------------------------|
    --0-----0-----2-----3-----|--2-----2h3p2----5-------2--|
    --1-----1-----2-----4-----|-----2--------2--4-------2--|
    --------------------------|----------------------------|
    --------------------------|--0-------------------------|
    -----0-----0-----0-----0--|-----------------4----4--2--|


    F#m A(onE) D(onF#) A(onE)
    -------------------------|--------------------------|
    -------2-----2-----2-----|--3-----3-----2-----2-----|
    -------2-----2-----2-----|--2-----2-----2-----2-----|
    -------------------------|--------------------------|
    -------------------------|--------------------------|
    ----2-----2-----0-----0--|--2--2-----2--0--0-----0--|


    E F#m E(onG#) F#m
    --------------------------|--------------------------|
    --0-----0-----2-----3-----|--2-----2-----2-----2-----|
    --1-----1-----2-----4-----|--2-----2-----2-----2-----|
    --------------------------|--------------------------|
    --------------------------|--------------------------|
    -----0-----0-----0-----0--|--2--2-----2-----2-----0--|


    C#(onF) Em6
    --------------------------|--------------------------|
    --2-----2-----2-----2-----|--2-----2-----2-----2-----|
    --1-----1-----1-----1-----|--0-----0-----0-----0-----|
    --------------------------|--------------------------|
    --------------------------|--------------------------|
    --1--1-----1-----1-----1--|-----0-----0-----0-----0--|


    F#7 E(onF#) Bm7
    --------------------|--------------------------|
    --------------------|--3-----3-----3-----3-----|
    --3--------3--------|--2-----2-----2-----2-----|
    --2--------2--------|--------------------------|
    --------------------|--2--2-----2--2--2-----0--|
    --2--------2--------|--------------------------|


    E7sus4 A E(onG#)
    -----------------------|-----------------------------|
    ----3-------3----------|--------2h3p2----5-----5--2--|
    ----2-------2----------|-----2--------2--4-----4--2--|
    -----------------------|-----------------------------|
    -----------------------|--0--------------------------|
    ---------0---------0h2-|-----------------4--4-----2--|


    F#m A(onE) D(onF#) E7sus4E7
    -------------------------|-------------------------|
    -------2-----2-----2-----|--3-----3-----3-----3----|
    -------2-----2-----2-----|--2-----2-----2-----1----|
    -------------------------|-------------------------|
    -------------------------|-------------------------|
    ----2-----2--0--0-----0--|--2--2-----2--0--0--0----|


    A A E(onG#)F#m
    ---------------------------|---------------------------|
    --2-----2-----2-----2------|--------2h3p2----5------2--|
    --2-----2-----2-----2------|-----2--------2--4------2--|
    ---------------------------|---------------------------|
    --0--0-----0--0--0--0------|--0------------------------|
    -----------------------0h2-|-----------------4------2--|


    F#m A(onE) D(onF#) A(onE)
    -------------------------|--------------------------|
    -------2-----2-----2-----|--3-----3-----2-----2-----|
    -------2-----2-----2-----|--2-----2-----2-----2-----|
    -------------------------|--------------------------|
    -------------------------|--------------------------|
    ----2-----2--0--0-----0--|--2--2--2--2--0--0-----0--|


    E F#m E(onG#) A E(onG#) F#m
    --------------------------|----------------------------|
    --0-----0-----2-----3-----|--2-----2h3p2----5-------2--|
    --1-----1-----2-----4-----|-----2--------2--4-------2--|
    --------------------------|----------------------------|
    --------------------------|--0-------------------------|
    -----0-----0-----0-----0--|-----------------4----4--2--|


    F#m A(onE) D(onF#) A(onE)
    -------------------------|--------------------------|
    -------2-----2-----2-----|--3-----3-----2-----2-----|
    -------2-----2-----2-----|--2-----2-----2-----2-----|
    -------------------------|--------------------------|
    -------------------------|--------------------------|
    ----2-----2-----0-----0--|--2--2-----2--0--0-----0--|


    E F#m E(onG#) F#m
    --------------------------|--------------------------|
    --0-----0-----2-----3-----|--2-----2-----2-----2-----|
    --1-----1-----2-----4-----|--2-----2-----2-----2-----|
    --------------------------|--------------------------|
    --------------------------|--------------------------|
    -----0-----0-----0-----0--|--2--2-----2-----2-----0--|


    C#(onF) Em6
    --------------------------|--------------------------|
    --2-----2-----2-----2-----|--2-----2-----2-----2-----|
    --1-----1-----1-----1-----|--0-----0-----0-----0-----|
    --------------------------|--------------------------|
    --------------------------|--------------------------|
    --1--1-----1-----1-----1--|-----0-----0-----0-----0--|


    F#7 E(onF#) Bm7
    --------------------|--------------------------|
    --------------------|--3-----3-----3-----3-----|
    --3--------3--------|--2-----2-----2-----2-----|
    --2--------2--------|--------------------------|
    --------------------|--2--2-----2--2--2-----0--|
    --2--------2--------|--------------------------|


    E7sus4 A E(onG#) F#m
    -----------------------|-----------------------------|
    ----3-------3----------|--------2h3p2----5-----5--2--|
    ----2-------2----------|-----2--------2--4-----4--2--|
    -----------------------|-----------------------------|
    -----------------------|--0--------------------------|
    ---------0---------0h2-|-----------------4--4-----2--|


    F#m A(onE) D(onF#) A(onE)
    -------------------------|-------------------------|
    -------2-----2-----2-----|--3-----3-----3-----3----|
    -------2-----2-----2-----|--2-----2-----2-----1----|
    -------------------------|-------------------------|
    -------------------------|-------------------------|
    ----2-----2--0--0-----0--|--2--2--2--2--0--0--0----|


    A C G(onB)
    ---------------------------|------------------------|
    --2-----2-----2-----2------|--------1---------------|
    --2-----2-----2-----2------|-----0----------0-------|
    ---------------------------|------------------------|
    --0--0-----0--0--0--0--0h2-|--3----------2-------0--|
    ---------------------------|------------------------|


    Am D(onF#) G D(onF#)
    ------------------------|--------------------------|
    -----1------3-----3-----|--3-----3-----3-----3-----|
    -----2------2-----2-----|--0-----0-----2-----2-----|
    --2---------------------|--------------------------|
    ------------------------|--------------------------|
    ------------2--2-----2--|--3--3-----3--2--2-----2--|


    Em7 D(onF#G C G(onB)
    -------------------------|------------------------|
    --3-----3-----3-----3----|--------1-------3-------|
    --0-----0-----2-----0----|-----0----------0-------|
    -------------------------|------------------------|
    -------------------------|--3----------2-------0--|
    --0--0-----0--2--2--3----|------------------------|


    Am D(onF#) G D(onF#)
    ------------------------|--------------------------|
    -----1------3-----3-----|--3-----3-----3-----3-----|
    -----2------2-----2-----|--0-----0-----2-----2-----|
    --2---------------------|--------------------------|
    ------------------------|--------------------------|
    ------------2--2-----2--|--3--3-----3--2--2-----2--|


    E A(onE) E7 A E(onG#)
    -------------------------|-----------------------|
    -------0-----2-----3-----|--2-----2------5----2--|
    -------1-----2-----4-----|-----2---------4----2--|
    -------------------------|-----------------------|
    -------------------------|--0--------------------|
    --0-------0-----0-----0--|---------------4----2--|


    F#m A(onE) D(onF#) A(onE)
    -------------------------|-----------0-----------------|
    -------2-----2-----2-----|--3-----3-----2-----2h3p2----|
    -------2-----2-----2-----|--2-----2-----2-----------2--|
    -------------------------|-----------------------------|
    -------------------------|-----------------------------|
    ----2-----2--0--0-----0--|--2--2--------0--0-----------|


    E F#m E(onF#)
    --------------------------|------------------|
    --0-----0-----2-----3-----|------------------|
    --1-----1-----2-----4-----|------------------|
    --------------------------|------------------|
    --------------------------|------------------|
    -----0-----0-----0-----0--|------------------|

      La date/heure actuelle est Ven 15 Déc - 4:07:19