Rock506070

Vous n'êtes pas connecté
Rock506070

L'âge d'or de la musique

Coming soon: rock506070's BLOG!

rock506070's BLOG coming soon.

    The Rolling Stones: Its Only Rock N Roll

    Partagez

    bd
    Administrator

    Masculin
    Posts : 323
    Age : 97
    Location : Friar Park
    Appreciation : 7
    Joined : 18/08/2007

    The Rolling Stones: Its Only Rock N Roll

    Message  bd le Dim 16 Nov - 15:45:09

    Spoiler:
    Code:
    By The Rolling Stones
    Album: It's Only Rock 'n' Roll (1974)



    Guitar 1:

    |--------------------------|--------------------------|--------------------------|
    |-------------------10/12--|-------------------10/12--|--------10----9-----------|
    |-------------------11/13--|-------------------11/13--|-----9--------9---------9-|
    |--------------------------|--------------------------|------------------------9h|
    |--------------------------|--------------------------|--------------------------|
    |--------------------------|--------------------------|--------------------------|


    Guitar 2:

    |--------------------------|--------------------------|--------------------------|
    |---9-10/12----------------|--------------------------|--------------------------|
    |---9-11/13\11--9-------9--|-----------------9\-------|--------------------------|
    |11---------------9h11--9--|-(9)----------------------|----------------9---------|
    |--------------------------|--------------------------|-----------9h11--------7--|
    |--------------------------|--------------------------|-------------------7h9----|

    Guitar 3:

    |----------------------12--|--------------------------|--12-----12-----12--------|
    |----------------------12--|----------rest------------|--12h14--12h14--12--------|
    |-----------------/13------|--------------------------|--------------------------|
    |--------------------------|--------------------------|--------------------------|
    |--------------------------|--------------------------|--------------------------|
    |--------------------------|--------------------------|--------------------------|


    [Guitar 1 stops and reappears at the chorus, 2 comes back during the verse]

     This is the main rhythm guitar[4]
     
                                                                            If
    |--------------------------|--------------------------|--------------------------|
    |--------------------------|--------------------------|--------------------------|
    |--------------------------|--------------------------|--------------------------|
    |--------------------------|--------------------------|--------------------------|
    |-----------------------2--|--------4-----5-----4-----|-----2--4-----2-----4-----|
    |-----------------------0--|-----0--0-----0-----0-----|-----0--0-----0-----0-----|

    Verse
          I could stick  my pen      in my heart          spill it all over the stage
    |--------------------------|--------------------------|--------------------------|
    |--------------------------|--------------------------|--------------------------|
    |--------------------------|--------------------------|--------------------------|
    |--------------------------|--------------------------|--------------------------|
    |-----2--------------4-----|--------------2-----4-----|-----2--4-----5-----4-----|
    |--0--0--3h4------0--0-----|-----0--3--4--0--0--0-----|-----0--0-----0-----0-----|

                        would      it satisfy  ya Would it slide on by ya  Would
    |--------------------------|--------------------------|--------------------------|
    |--------------------------|--------------------------|--------------------------|
    |--------------------------|--------------------------|--------------------------|
    |--------------------------|--------------------------|--------------------------|
    |-----2--------2-----4-----|-----2--4-----5-----4-----|-----5--4-----2--4--------|
    |-----0--3--4--0-----0--0--|-----0--0-----0-----0-----|-----0--0-----0--0--------|

     ya think the boy    is strange?        Ain't he strange?                  If     
    |--------------------------|--------------------------|--------------------------|
    |--------------------------|--------------------------|--------------------------|
    |--------------------------|--------------------------|--------------------------|
    |--------------------------|--------------------------|--------------------------|
    |-----2--4-----5-----4-----|--X--2--4-----X--4-----7--|-----5-----2--------------|
    |--0--0--0-----0-----0-----|--X--0--0-----X--0-----5--|-----3-----0--------------|

      I could win ya        if      I could sing ya    a    love song  so divine
    |--------------------------|--------------------------|--------------------------|
    |--------------------------|--------------------------|--------------------------|
    |--------------------------|--------------------------|--------------------------|
    |--------------------------|--------------------------|--------------------------|
    |-----2--4-----5-----4-----|-----2--------2-----4-----|-----2--4-----5-----4-----|
    |--0--0--0-----0-----0-----|-----0--3--4--0-----0-----|-----0--0-----0-----0-----|

                        would  it be enough for your          cheatin' heart  if
    |--------------------------|--------------------------|--------------------------|
    |--------------------------|--------------------------|--------------------------|
    |--------------------------|--------------------------|--------------------------|
    |--------------------------|--------------------------|--------------------------|
    |-----2--------2-----4-----|-----2--4-----5-----4-----|-----2--------2-----4-----|
    |-----0--3--4--0-----0-----|-----0--0-----0-----0-----|-----0--3--4--0-----0-----|

          I broke down and cried        If  I        cried
    |--------------------------|--------------------------|--------------------------|
    |--------------------------|--------------------------|--------------------------|
    |--------------------------|--------------------------|--------------------------|
    |--------------------------|--------------------------|--------------------------|
    |--------4-----5-----4-----|--2-----4--------2-----7--|-----5-----2--------4-----|
    |-----0--0-----0-----0-----|--0--0--0--------0-----5--|-----3-----0-----0--0-----|


                        I said
    |--------------------------|
    |--------------------------|
    |--------------------------|
    |--------------------------|
    |-----2--4-----------------|
    |-----0--0-----0--0--0--0--|
    End Verse




     Guitar 2:

     This comes in at the "Ain't He strange" Part
     Verse
     !
    |--------------------------|--------------------------|--------------------------|
    |--------------------------|--------------------------|--------------------------|
    |--------------------------|-----------------9--------|--9--------9--------------|
    |--------------------------|-----------------9--------|--9--------9--------------|
    |-----------------------7--|-----5--------------------|-------------------10-11--|
    |-----------------------5--|-----3-----0--------------|--------------------------|

    |--------------------------|--------------------------|--------------------------|
    |--------------------------|--------------------------|--------------------------|
    |--------------------------|-----9--------9-----------|--------------------------|
    |-----9--11----9-----11----|-----9--------9-----------|-----9--11----9-----11----|
    |-----7--7-----7-----7-----|--------------------------|-----7--7-----7-----7-----|
    |--------------------------|--------------------------|--------------------------|

    |--------------------------|--------------------------|--------------------------|
    |--------------------------|--------------------------|--------------------------|
    |-----9--------9--------9--|-----9--------9-----------|-----9--------9--------9--|
    |-----9--------9--------9--|-----9--------9-----------|-----9--------9--------9--|
    |--------10-11-------------|--------10-11-------------|--------10-11-------------|
    |--------------------------|--------------------------|--------------------------|
                                                                              I said
    |-----------------------5--|-----3--------------------|--------------------------|
    |-----------------------5--|-----3--------------------|--------------------------|
    |------------9----------6--|-----4-----------9--------|--9--------9--------------|
    |------------9----------7--|-----5-----------9--------|--9--------9--------------|
    |--------------------------|--------------------10-11-|--------------------------|
    |--------------------------|--------------------------|--------------------------|

    End Verse

    Guitar 1: Chorus
     
     I          know      it's only rock n  roll but I  like  it     
    |--------------------------|--------------------------|--10--------10---------10-|
    |-/10--------10------10----|-----10-10-----10---------|--10B-------10B--------10-|
    |-/9---------9-------9-----|-----9--9------9----------|--------------------------|
    |--------------------------|--------------------------|--------------------------|
    |--------------------------|--------------------------|--------------------------|
    |--------------------------|--------------------------|--------------------------|

                    I said    I      know          it's only rock n rol but I   
    |(10)-----10---10----------|--------------------------|--------------------------|
    |(10)B----10B--10Br(10)----|--10\9---10--(10)\--------|--10-10---------10\-------|
    |----------------------9\--|--9-\8---9---(9)-\--------|--9--9----------9-\-------|
    |--------------------------|--------------------------|--------------------------|
    |--------------------------|--------------------------|--------------------------|
    |--------------------------|--------------------------|--------------------------|

     like  it

      La date/heure actuelle est Ven 15 Déc - 4:04:02