Rock506070

Vous n'êtes pas connecté
Rock506070

L'âge d'or de la musique

Coming soon: rock506070's BLOG!

rock506070's BLOG coming soon.

    The Rolling Stones: Moonlight Mile

    Partagez

    bd
    Administrator

    Masculin
    Posts : 323
    Age : 97
    Location : Friar Park
    Appreciation : 7
    Joined : 18/08/2007

    The Rolling Stones: Moonlight Mile

    Message  bd le Dim 16 Nov - 18:59:59

    Spoiler:
    Code:
    Here's the correct intro for Moonlight Mile. The other tab is
    horribly wrong.

    |-----------------------------------------------------
    |-----------------------------------------------------
    |-----------------------------------------------------
    |-------------------12h14-12h14-12h14-12h14-12h14-----
    |-10h12-10h12-10h12-----------------------------------
    |-----------------------------------------------------

    |-----------------------------------------------------
    |-----------------------------------------------------
    |-12h14-12--------------------------------------------
    |----------14-12h14-12h14-12--------------------------
    |----------------------------12h14-14-12h14-12h14-12--
    |-----------------------------------------------------

    |-----------3---
    |-----------3---
    |-----------0---
    |-----------0---
    |-7h10-10---2---
    |-----------3---

    There are some background notes and stuff but its mostly variations
    on the intro.


    Verse: 
          G                          Am  Am7  C   
          When the wind blows and the rain feels cold
                              G            C            G 
          With a head full of snow, with a head full of snow
        G                        Am  Am7  C*
          In the window there's a face you know
                                G                C          G
          Don't the night pass slow, don't the nights pass slow


    Chorus:
        C                                G
          The sound of strangers sending nothing to my mind
          Am          D        C          G
          Just another mad, mad day on the road
        C                        G
          I am just living to be lying by your side
                  Am          D        C                G
          But I'm just about a moonlight mile on down the road
     

    Instrumental:  G  Am  Am7  C  G  C  G


    Verse:
          Made a rag pile of my shiny clothes
          Gonna warm my bones, gonna warm my bones
          I got silence on my radio
          Let the air waves flow, let the air waves flow


    Chorus:
          Oh, I'm sleeping under strange, strange skies
          Just another mad, mad day on the road
          My dreams is fading down the railway line
                                                                C  G
          I'm just about a moonlight mile on down the road, yeah


    Bridge:
        C                              G
          I'm hiding sister, and I'm dreaming
        C                                G
          I'm riding down your moonlight mile
        C                            G
          I'm hiding, baby, and I'm dreaming
        C                                G
          I'm riding down your moonlight mile
        C                                G
          I'm riding down your moonlight mile


    Interlude:
          Let it go now, come on now, baby          }  Play G  C  G
          Yeah, let it go now, yeah, flow now, baby }  over this


    Chorus:
                            C  G
          Yeah, I'm coming home
                      Am          D        C                G
          'Cause I'm just about a moonlight mile on down the road
                                      C          G
          On down the road, down the road, yeah, baby, ah


    Outro:  play intro


    E-mail me at Calvin2376@aol.com

      La date/heure actuelle est Ven 20 Oct - 21:48:04