Rock506070

Vous n'êtes pas connecté
Rock506070

L'âge d'or de la musique

Coming soon: rock506070's BLOG!

rock506070's BLOG coming soon.

    The Rolling Stones: No Expectations

    Partagez

    bd
    Administrator

    Masculin
    Posts : 323
    Age : 97
    Location : Friar Park
    Appreciation : 7
    Joined : 18/08/2007

    The Rolling Stones: No Expectations

    Message  bd le Dim 16 Nov - 19:05:06

    Spoiler:
    Code:
    From: "DON CZAR"
    Subject: r/rolling_stones/no_expectations.crd
    Date: Mon, 11 May 1998 09:16:11 PDT

    SONG: NO EXPECTATIONS
    ARTIST: ROLLING STONES
    ALBUM: ROCK AND ROLL CIRCUS
    TAB BY: DON CZARSKI
    E-MAIL: guitarzan7@hotmail.com


                            NO EXPECTATIONS
                            ROLLING  STONES


    CAPO: 2nd FRET

            THIS CHORD PROGRESSION PLAYED THROUGHOUT SONG
    INTRO:  C  G  C  G    C  G    F  C  G
             
            AND/OR

    PLAYED WITH SLIDE BAR:

    E -------3--------------|-------3--------------|
    B --3/5*---5-5-------3--|--3/5*---5-5-------3--| NOTE: * means slide
    G --------------3/4*----|--------------3/4*----|        to but don't
    D ----------------------|----------------------|        strike the
    A ----------------------|----------------------|        note.
    E ----------------------|----------------------|

    INTRO CONTINUED:

    E -------3-----------3--|------------------------------------|
    B --3/5*---5-5--3/5*----|--9/10*---10/8*---10/12*---10/12*---|
    G ----------------------|--9/10*---10/8*---10/12*---10/12*---|
    D ----------------------|------------------------------------|
    A ----------------------|------------------------------------|
    E ----------------------|------------------------------------|


          any questions, comments or corrections e-mail me at:
                      guitarzan7@hotmail.com

      La date/heure actuelle est Ven 20 Oct - 21:48:35