Rock506070

Vous n'êtes pas connecté
Rock506070

L'âge d'or de la musique

Coming soon: rock506070's BLOG!

rock506070's BLOG coming soon.

    Red Hot Chili Peppers: Under the Bridge tab

    Partagez

    bd
    Administrator

    Masculin
    Posts : 323
    Age : 97
    Location : Friar Park
    Appreciation : 7
    Joined : 18/08/2007

    Red Hot Chili Peppers: Under the Bridge tab

    Message  bd le Mar 18 Nov - 17:19:34

    Spoiler:
    Code:
    Red Hot Chili Peppers
    Under The Bridge
    Tabber: Unknown

    Intro

    |------------------------------------|----------------------------------|
    |--3------------3--------------------|--2-------------------------------|
    |---------2--------2-----------------|--------------3-------------------|
    |------4-----4-----------------------|--------4--------4----4--2--------|
    |--5---------------------4--2--------|-----4-----4----------------5--2--|
    |------------------------------5--4--|--2-------------------------------|

    |------------------------------------|----------------------------------|
    |--3---------------3h5p3-------------|----------------------------------|
    |------------2------------2----------|--------------3-------------------|
    |------4--------4-------------4/6-6--|--------4--------4----4--2--------|
    |--4/5----5-------------------5/7-7--|-----4-----4----------------5--2--|
    |------------------------------------|--2-------------------------------|

    |------------------------------------|----------------------------------|
    |--3-------------3-------------------|--2-------------------------------|
    |-----------2-------2----------------|--------------3-------------------|
    |------4-------4---------------------|--------4--------4----4--2--------|
    |--4/5----5--------------4--2--------|-----4-----4----------------5--2--|
    |------------------------------5--4--|--2-------------------------------|

    |------------------------------------|----------------------------------|
    |--3---------------3h5p3-------------|----------------------------------|
    |------------2------------2----------|--------------3---------3---------|
    |------4--------4-------------4/6-6--|--------4---------4---------4-----|
    |--4/5----5-------------------5/7-7--|-----4-----4---------4---------4/-|
    |------------------------------------|--2-------------------------------|


    0:28: Verse 1

    |----------------------------|--------------------------|
    |---9---7--------9x--4---5---|---9---7--------9----5----|
    |---9---8--------9x--4---6---|---9---8--------9----6----|
    |---9---9---9/11-----6---7---|---9---9--------11---7----|
    |---7---9------------6---7---|---7---9--------11---7----|
    |-----------7/9--------------|--------------------------|

    |----------------------------|--------------------------|
    |---9---7--------9---4---5---|---9---7--------9----5----|
    |---9---8--------9---4---6---|---9---8--------9----6----|
    |---9---9--------11--6---7---|---9---9--------11---7----|
    |---7---9--------11--6---7---|---7---9--------11---7----|
    |---7------------------------|--------------------------|

    |----------------------------|
    |---9------------------------|
    |---8------------------------|
    |---9------------------------|
    |---7------------------------|
    |----------------------------|


    0:58: Verse 2

    |--------------------------------|-----------------------5h7p5--5--|
    |--9--9x---7--7---------------7--|--------9----9--4---5--5------5--|
    |--9--9x---8--8-----8h9p8-----8--|--------9----9--4---6---------6--|
    |--9--9x---9-----9---------9-----|--9/11----11----6---7------------|
    |--7-------9---------------------|--9/11----11----6---7------------|
    |--------------------------------|---------------------------------|

    |--------------------------------|----------------------5----------|
    |--9--9x---7--7---------------7--|--------9----9--5---------5------|
    |--9--9x---8--8-----8h9p8-----8--|--------9----9--6-------------6--|
    |--9--9x---9-----9---------9-----|--9/11----11----7----------------|
    |--7-------9---------------------|--9/11----11----7----------------|
    |--------------------------------|---------------------------------|

    |--------------------------------|-----------------------5h7p5--5--|
    |--9--9x---7--7---------------7--|--------9----9--4---5--5------5--|
    |--9--9x---8--8-----8h9p8-----8--|--------9----9--4---6---------6--|
    |--9--9x---9-----9---------9-----|--9/11----11----6---7------------|
    |--7-------9---------------------|--9/11----11----6---7------------|
    |--------------------------------|---------------------------------|

    |--------------------------------|-------------------------5-------|
    |--9--9x---7--7-----7------------|--------9x------5-------------5--|
    |--9--9x---8--8-----8------------|--------9x------6----------------|
    |--9--9x---9---------------9-----|--9/11----------7----------------|
    |--7-------9-----9---------9-----|--9/11----------7----------------|
    |--------------------------------|---------------------------------|

    |--------------------------------|
    |--9-----------------------------|
    |--8-----------------------------|
    |--9-----------------------------|
    |--7-----------------------------|
    |--------------------------------|


    1:27: Chorus

    |-----------------|--11-11-11-11-------9--9---x-x-x-x--|
    |--10---9--9---9--|--12-12-12-12--10---10-10--x-x-x-x--|
    |--11---9--9---9--|--11-11-11-11--11---11-11--x-x-x-x--|
    |--11---9--9---9--|---------------11-------------------|
    |--9----7--7---7--|---------------9--------------------|
    |-----------------|------------------------------------|
                                                          x3     
    |-----------------|--11-11-11-11-------9--9---|
    |--10---9--9---9--|--12-12-12-12--10---10-10--|
    |--11---9--9---9--|--11-11-11-11--11---11-11--|
    |--11---9--9---9--|---------------11----------|
    |--9----7--7---7--|---------------9-----------|
    |-----------------|---------------------------|
                                                                               

    1:49: Verse 3

    |--------------------------------|-----------------------5h7p5--5--|
    |--9--9----7--7-----7h9p7-----7--|--------9----9--4---5---------5--|
    |--9--9----8--8--8---------8--8--|--------9----9--4---6---------6--|
    |--9--9----9---------------------|--9/11----11----6---7------------|
    |--7-------9---------------------|--9/11----11----6---7------------|
    |----------7---------------------|---------------------------------|

    |--------------------------------|----------------------5----------|
    |--9--9x---7--7---------------7--|--------9----9--5---------5------|
    |--9--9x---8--8-----8h9p8-----8--|--------9----9--6-------------6--|
    |--9--9x---9-----9---------9-----|--9/11----11----7----------------|
    |--7-------9---------------------|--9/11----11----7----------------|
    |--------------------------------|---------------------------------|

    |--------------------------------|--------------------------5------|
    |--9--9----7--7------------------|--------9----9--4---5-------5----|
    |--9--9----8--8-----8h9p8--------|--------9----9--4---6---------6--|
    |--9--9----9-----9---------9-----|--9/11----11----6---7------------|
    |--7-------9---------------------|--9/11----11----6---7------------|
    |--------------------------------|---------------------------------|

    |-------------------7h9p7-----7--|--------------------------5------|
    |--9--9x---7--7-----7---------7--|--------9x------5-----------5----|
    |--9--9x---8--8--8------------8--|--------9x------6-------------6--|
    |--9--9x---9---------------------|--9/11----------7----------------|
    |--7-------9---------------------|--9/11----------7----------------|
    |--------------------------------|---------------------------------|

    |--------------------------------|-----------------------5h7p5--5--|
    |--9--9x---7--7---------------7--|--------9----9--4---5--5------5--|
    |--9--9x---8--8-----8h9p8-----8--|--------9----9--4---6---------6--|
    |--9--9x---9-----9---------9-----|--9/11----11----6---7------------|
    |--7-------9---------------------|--9/11----11----6---7------------|
    |--------------------------------|---------------------------------|

    |--------------------------------|-------------------------5-------|
    |--9--9----7--7------------------|--------9x------5-------------5--|
    |--9--9----8--8------------------|--------9x------6----------------|
    |--9--9----9------------------9--|--9/11----------7----------------|
    |--7-------9------------------9--|--9/11----------7----------------|
    |--------------------------------|---------------------------------|

    |--------------------------------|
    |--9-----------------------------|
    |--8-----------------------------|
    |--9-----------------------------|
    |--7-----------------------------|
    |--------------------------------|


    2:29: Chorus

    |-----------------|--11-11-11-11--9----9--9---x-x-x-x--|
    |--10---9--9---9--|--12-12-12-12--10---10-10--x-x-x-x--|
    |--11---9--9---9--|--11-11-11-11--11---11-11--x-x-x-x--|
    |--11---9--9---9--|--9--9--9--9---11-------------------|
    |--9----7--7---7--|---------------9--------------------|
    |-----------------|------------------------------------|
                                                          x3     
    |-----------------|--11-11-11-11--9----9--9---|
    |--10---9--9---9--|--12-12-12-12--10---10-10--|
    |--11---9--9---9--|--11-11-11-11--11---11-11--|
    |--11---9--9---9--|--9--9--9--9---11----------|
    |--9----7--7---7--|---------------9-----------|
    |-----------------|---------------------------|


    2:52: Bridge 1

    |--0---0---0--0x--0---------------------|
    |--5---5---3--3x--1---------1-----------|
    |--6---5---4--4x--2------2-----2-----2--|
    |--7---7---5--5x--3---3-----------3-----|
    |--7---7---5--5x--3---------------------|
    |---------------------------------------|
                                          x3
    |-12-12-12-12-12-12-12-12-|-12-12-12-12-12-12-12-12-|
    |-10-10-10-10-10-10-10-10-|-10-10-10-10-10-10-10-10-|
    |-10-10-10-10-10-10-10-10-|-10-10-10-10-10-10-10-10-|
    |-10-10-10-10-10-10-10-10-|-10-10-10-10-10-10-10-10-|
    |-------------------------|-------------------------|
    |-------------------------|-------------------------|

    |-10-10-10-10-10-10-10-10-|-14-14-14-14-14-14-14-14-|
    |-9--9--9--9--9--9--9--9--|-12-12-12-12-12-12-12-12-|
    |-9--9--9--9--9--9--9--9--|-12-12-12-12-12-12-12-12-|
    |-9--9--9--9--9--9--9--9--|-12-12-12-12-12-12-12-12-|
    |-------------------------|-------------------------|
    |-------------------------|-------------------------|

    |--0---0---0--0x--0---------------------|--------|
    |--5---5---3--3x--1---------1-----------|--------|
    |--6---5---4--4x--2------2-----2-----2--|--------|
    |--7---7---5--5x--3---3-----------3-----|--7/14--|
    |--7---7---5--5x--3---------------------|--------|
    |---------------------------------------|--------|
                                          x8

    3:57: Outro

    |--0--0-0---0--0--0----x--0--0---0--------0----|
    |--5--5-5---5--5--5----x--3--3---1----0h1---1--|
    |--6--6-6---5--5--5----x--4--4---2-------------|
    |--7--7-7---7--7--7----x--5--5---3-------------|
    |--7--7-7---7--7--7----x--5--5---3-------------|
    |----------------------------------------------|

    |--0--0-0---0-------------0--0---0-------------|
    |--5--5-5---5-5-5-5h7p5---3--3---1-1-1-1h3p1---|
    |--6--6-6---5--5-------5--4--4---2--2-------2--|
    |--7--7-7---7-------------5--5---3-------------|
    |--7--7-7---7-------------5--5---3-------------|
    |----------------------------------------------|

    |--0--0x----0-------------0--0x--0----------0--|
    |--5--5x----5-5-----7p5---3-—3x--1-1-1------1--|
    |--6--6x----5--5x------5x-4--4x--2--2-------2--|
    |--7--7x----7-------------5--5x--3----------3--|
    |--7--7x----7-------------5--5x--3----------3--|
    |----------------------------------------------|

    |--0--0x----0-------------0--0---0------------||
    |--5--5x----5-5---5h7p5---3-—3---1--1----2----||
    |--6--6x----5--5x------5x-4--4---2-------2----||
    |--7--7x----7-------------5------3-------2----||
    |--7--7x----7-------------5------3-------0----||
    |---------------------------------------------||

      La date/heure actuelle est Ven 20 Oct - 21:49:17