Rock506070

Vous n'êtes pas connecté
Rock506070

L'âge d'or de la musique

Coming soon: rock506070's BLOG!

rock506070's BLOG coming soon.

    Cream: Sunshine of Your Love 1

    Partagez

    bd
    Administrator

    Masculin
    Posts : 323
    Age : 97
    Location : Friar Park
    Appreciation : 7
    Joined : 18/08/2007

    Cream: Sunshine of Your Love 1

    Message  bd le Lun 24 Nov - 20:08:10

    Spoiler:
    Code:
    Originally done by Cream

    Sunshine Of Your Love(1967)
    Album: Disraeli Gears
    Tuning: EADGBe
    W/Distortion

    Order of Song

    Intro.(D)
    -----------------------------------------|-----------------------------------------|
    -----------------------------------------|-----------------------------------------|
    -----------------------------------------|-----------------------------------------|
    -12-12-10-12-----------------------------|/12-12-10-12-----------------------------|
    --------------12--11--10------8~~~-------|--------------12--11--10\------8~~~------|
    ---------------------------10-------10-10|----------------------------10------10---|

     


      D  D    C  D               
    ----------------------------------------------|-----------------------------------------------|
    ----------------------------------------------|-------------------------------12--------------|
    -11--11---9--11---------------12--10~~~-------|--11--11---9--11---------------12--10~~~-------|
    --X---X---X---X---------------12--------12----|---X---X---X---X---------------12--------12----|
    -12--12--10--12--12--11--10-------------------|--12--12--10--12--12--11--10-----------------10|
    -10--10---8--10-----------------------------10|--10--10---8--10-------------------------------|

      D  D    C  D               
    ----------------------------------------------|-----------------------------------------------|
    ----------------------------------------------|-------------------------------12--------------|
    -11--11---9--11---------------12--10~~~-------|--11--11---9--11---------------12--10~~~-------|
    --X---X---X---X---------------12--------12----|---X---X---X---X---------------12--------12----|
    -12--12--10--12--12--11--10-------------------|--12--12--10--12--12--11--10-----------------10|
    -10--10---8--10-----------------------------10|--10--10---8--10-------------------------------|


      D  D    C  D               
    ----------------------------------------------|-----------------------------------------------|
    ----------------------------------------------|-------------------------------12--------------|
    -11--11---9--11---------------12--10~~~-------|--11--11---9--11---------------12--10~~~-------|
    --X---X---X---X---------------12--------12----|---X---X---X---X---------------12--------12----|
    -12--12--10--12--12--11--10-------------------|--12--12--10--12--12--11--10-----------------10|
    -10--10---8--10-----------------------------10|--10--10---8--10-------------------------------|


      D  D    C  D               
    ----------------------------------------------|-----------------------------------------------|
    ----------------------------------------------|-------------------------------12--------------|
    -11--11---9--11---------------12--10~~~-------|--11--11---9--11---------------12--10~~~-------|
    --X---X---X---X---------------12--------12----|---X---X---X---X---------------12--------12----|
    -12--12--10--12--12--11--10-------------------|--12--12--10--12--12--11--10-----------------10|
    -10--10---8--10-----------------------------10|--10--10---8--10-------------------------------|


      G  G  F  G                                 
    -----------------------------------------------|-----------------------------------------------|
    -12--12--10--12--------------------------------|-12--12--10--12--------------------------------|
    -12--12--10--12--------------------------------|-12--12--10--12--------------------------------|
    -12--12--10--12--12--11--10-----8-8b-----------|-12--12--10--12--12--11--10-----8-8---8--------|
    -10--10---8--10--------------10------10--10----|-10--10---8--10--------------10---------10-----|
    -----------------------------------------------|-------------------------------------------10--|

     D  D    C  D               
    ----------------------------------------------|-----------------------------------------------|
    ----------------------------------------------|-----------------------------------(0)~~~------|
    -11--11---9--11-------------------------------|--11--11---9--11-------------------10----------|
    --X---X---X---X-------------------XX----------|---X---X---X---X--------------------------12\--|
    -12--12--10--12--12--11--10-----8-XX----------|--12--12--10--12--12--11--10-------------------|
    -10--10---8--10--------------10------10--/10--|--10--10---8--10--------------10--------------0|
     
     A                                  C          G
    -0---0-0---------------------------|-------------3-----x-----|
    -2---2-2---------------------------|-5-----x-----3-----x-----|
    -2---2-2---------------------------|-5-----x-----4-----x-----|-Do this 3 times
    -2---2-2---------------------------|-5-----x-----5-----x-----|
    -0---0-0---------------------------|-3-----x-----5-----x-----|
    -----------------------------------|-------------3-----x-----|

     A
    -0---0-0-----0-0-----0-0---0|-0-----0-0-0---0-0---0---0------|
    -2---2-2-----2-2-----2-2---2|-2-----2-2-2---2-2---2---2------|
    -2---2-2-----2-2-----2-2---2|-2-----2-2-2---2-2---2---2------|
    -2---2-2-----2-2-----2-2---2|-2-----2-2-2---2-2---2---2------|
    -0---0-0-----0-0-----0-0---0|-0-----0-0-0---0-0---0---0------|
    ----------------------------|---------------------------/10--|
     
     

      D  D    C  D               
    ----------------------------------------------|-----------------------------------------------|
    ------------------------------12~-------------|-------------------------------12~-------------|
    -11--11---9--11---------------12~-10~~~-------|--11--11---9--11---------------12~-10~~~-------|
    --X---X---X---X---------------12~-------12----|---X---X---X---X---------------12~-------12----|
    -12--12--10--12--12--11--10-------------------|--12--12--10--12--12--11--10-------------------|
    -10--10---8--10-------------------------------|--10--10---8--10-------------------------------|


     
      D  D    C  D                                                              rake
    ----------------------------------------------|------------------------------------------------|
    ----------------------------------------------|------------------------------------------------|
    -11--11---9--11---------------12--10~~~-------|--11--11---9--11-----------------12-10~~~-------|
    --X---X---X---X---------------12--------12----|---X---X---X---X----------10---12--------12-----|
    -12--12--10--12--12--11--10-------------------|--12--12--10--12--12--11--10-------------------0|
    -10--10---8--10-----------------------------10|--10--10---8--10--------------------------------|

     
     D  D    C  D               
    -----------------------------------------------|
    ------------------------------12---------------|
    -11--11---9--11---------------12-10~~~---------|
    -12--12--10--12---------------12--------12-----|
    -12--12--10--12--12--11--10-----------------10-|
    -10--10---8--10--------------------------------|

     
     G  G  F  G                                 
    -----------------------------------------------|--------------------------------------------|
    -12--12--10--12--------------------------------|-12--12--10--12-----------------------------|
    -12--12--10--12--------------------------------|-12--12--10--12-----------------------------|
    -12--12--10--12--12--11--10-----8-8b-----------|-12--12--10--12--12--11--10------8b---------|
    -10--10---8--10--------------10------10--10----|-10--10---8--10--------------10------10-----|
    -----------------------------------------------|----------------------------------------10--|

     A                                  C          G
    -0---0-0---------------------------|-------------3-----x-----|
    -2---2-2---------------------------|-5-----x-----3-----x-----|
    -2---2-2---------------------------|-5-----x-----4-----x-----|-Do this 3 times
    -2---2-2---------------------------|-5-----x-----5-----x-----|
    -0---0-0---------------------------|-3-----x-----5-----x-----|
    -----------------------------------|-------------3-----x-----|

     A
    -0---0-0-----0-0-----0-0---0|-0-----0-0-0---0-0---0---0------|
    -2---2-2-----2-2-----2-2---2|-2-----2-2-2---2-2---2---2------|
    -2---2-2-----2-2-----2-2---2|-2-----2-2-2---2-2---2---2------|
    -2---2-2-----2-2-----2-2---2|-2-----2-2-2---2-2---2---2------|
    -0---0-0-----0-0-----0-0---0|-0-----0-0-0---0-0---0---0------|
    ----------------------------|---------------------------/10--|
     


    Guitar Solo:                        Pre-Bend
    ---------------------------------------^----------------------|
    ----------------------------------12--------------------------|
    ----12--12B~~~~~~~------12-12B------12B12----12--12B~~~~~~----|
    ------------------------------------------------------------x-|
    --------------------------------------------------------------|
    --------------------------------------------------------------|

    -------------------------------------------------------|
    -----------------------9b------------------------------|
    ---9b--(9)p7--9--7-----9bb-----7~~~~~------------------|
    -------------------------------------------------------|
    -------------------------------------------------------|
    -------------------------------------------------------|
                 
    -------------------------------------------------------|
    --------------9b-----(9b)----9b------------------------|
    --------7h9---9bb----(9bb)---9bb--(9)--7h9p7~~~~~------|
    ---7h9-------------------------------------------------|
    -------------------------------------------------------|
    -------------------------------------------------------|
     Grad. Bend
    ----------------------------------------------------------------|
    ----------------------------------------------------------------|
    -10B-(10)BB----10BB-10Bbb----10B-10B~~~~--10-7--9B----7~~~--9B--|
    ----------------------------------------------------9-----------|
    ----------------------------------------------------------------|
    ----------------------------------------------------------------|


    ---------------------------------------------------------------|
    ---------------------------------------------------------------|
    ------7h9--9b----------7h9B-----9Bb--9B-----7--9-----7h9--7~~~-|
    -7h9--------------9------------------------------(9)-----------|
    ---------------------------------------------------------------|
    ---------------------------------------------------------------|


    ---------------------------------------------------------------|
    /13~~~---------------------------------------------------------|
    /14~~-12-10-11-----10-------------10h11---------(11)~~~~-------|
    ---------------(12)-----12p10--12------------------------------|
    ---------------------------------------------------------------|
    ---------------------------------------------------------------|

    -----10-------------------------------------------------------|
    ---------------------------------13---------------------------|
    x/x-------10b-------10--12B~~~~-----12B---12--10~~~-12--12/14-|
    ---------------12---------------------------------------------|
    --------------------------------------------------------------|
    --------------------------------------------------------------|

    ---------------------------10--------------------------------------|
    --13----------------10-10------------------------------------------|
    -----12/14-10-12B--------------12b-(12)p10---10b-------------------|
    ------------------------------------------12------12---------------|
    ------------------------------------------------------12~~~~-------|
    -------------------------------------------------------------------|


    ---------------------------------------------------------------------------|
    -------------------------10-12-------------13---13-13h15-13----------------|
    -------------10----10----10-12--12/14~~~-----14-------------14\12-10b------|
    -10----10----10h12-10h12---------------------------------------------------|
    -10h12-10h12---------------------------------------------------------------|
    ---------------------------------------------------------------------------|


    ----------------------------------13---------------------------------------|
    ----------------13----15B-13-15---13-15p13---------------------------------|
    12p10--12/14~~~----14----------------------14\12-10b---------12--10--------|
    -x-----------------------------------------------------12-12---------------|
    ---------------------------------------------------------------------------|
    ---------------------------------------------------------------------------|

    -------------------------------------------------------|
    ----------13-13---13-----------------------------------|
    --12/14------14---1414\12-10b--------------------------|
    ------------------------------------12p10-----10h12----|
    ------------------------------------------12-----------|
    -----------------------------------------------------10|
    Reference to Solo-

    Bends:

    B-Full

    b-Half

    bb-3/4

    Bbb-1 3/4

    BB-2

    Others:

    x-Mute String

    ~-vibrato

    \-Slide Up

    /-Slide Down

    H-Hammer On

    P-Pull Off

      La date/heure actuelle est Dim 17 Déc - 4:09:21