Rock506070

Vous n'êtes pas connecté
Rock506070

L'âge d'or de la musique

Coming soon: rock506070's BLOG!

rock506070's BLOG coming soon.

    Cream: Sunshine Of Your Love 2

    Partagez

    bd
    Administrator

    Masculin
    Posts : 323
    Age : 97
    Location : Friar Park
    Appreciation : 7
    Joined : 18/08/2007

    Cream: Sunshine Of Your Love 2

    Message  bd le Lun 24 Nov - 20:11:04

    Spoiler:
    Code:
    D  D    C  D               
    -----------------------------------------------|-----------------------------------------------|
    -----------------------------------------------|-----------------------------------------------|
    -11--11---9--11--------------------------------|-11--11---9--11---------------12~--10~~~-------|
    -12--12--10--12--------------------------------|-12--12--10--12---------------12~--------12----|
    -12--12--10--12--12--11--10-----8~~~-----------|-12--12--10--12--12--11--10------------------10|
    -10--10---8--10--------------10-----10-/10-----|-10--10---8--10------------------------------10|

     D  D    C  D               
    ----------------------------------------------|-----------------------------------------------|
    ----------------------------------------------|-------------------------------12--------------|
    -11--11---9--11---------------12--10~~~-------|--11--11---9--11---------------12--10~~~-------|
    --X---X---X---X---------------12--------12----|---X---X---X---X---------------12--------12----|
    -12--12--10--12--12--11--10-------------------|--12--12--10--12--12--11--10-----------------10|
    -10--10---8--10-----------------------------10|--10--10---8--10-------------------------------|


     D  D    C  D               
    ----------------------------------------------|-----------------------------------------------|
    ----------------------------------------------|-------------------------------12--------------|
    -11--11---9--11---------------12--10~~~-------|--11--11---9--11---------------12--10~~~-------|
    --X---X---X---X---------------12--------12----|---X---X---X---X---------------12--------12----|
    -12--12--10--12--12--11--10-------------------|--12--12--10--12--12--11--10-----------------10|
    -10--10---8--10-----------------------------10|--10--10---8--10-------------------------------|
     

     G  G  F  G                                 
    -----------------------------------------------|--------------------------------------------|
    -12--12--10--12--------------------------------|-12--12--10--12-----------------------------|
    -12--12--10--12--------------------------------|-12--12--10--12-----------------------------|
    -12--12--10--12--12--11--10-----8-8b-----------|-12--12--10--12--12--11--10------8b---------|
    -10--10---8--10--------------10------10--10----|-10--10---8--10--------------10------10-----|
    -----------------------------------------------|----------------------------------------10--|                                     


     D  D    C  D               
    ----------------------------------------------|-----------------------------------------------|
    ----------------------------------------------|-------------------------------12--------------|
    -11--11---9--11---------------12--10~~~-------|--11--11---9--11---------------12--10~~~-------|
    --X---X---X---X---------------12--------12----|---X---X---X---X---------------12--------12----|
    -12--12--10--12--12--11--10-------------------|--12--12--10--12--12--11--10-----------------10|
    -10--10---8--10-----------------------------10|--10--10---8--10-------------------------------|

     


     A                                  C          G
    -0---0-0---------------------------|-------------3-----x-----|
    -2---2-2---------------------------|-5-----x-----3-----x-----|
    -2---2-2---------------------------|-5-----x-----4-----x-----|-Do this 3 times
    -2---2-2---------------------------|-5-----x-----5-----x-----|
    -0---0-0---------------------------|-3-----x-----5-----x-----|
    -----------------------------------|-------------3-----x-----|

     A
    -0---0-0-----0-0-----0-0---0|-0-----0-0-0---0-0---0---0------|
    -2---2-2-----2-2-----2-2---2|-2-----2-2-2---2-2---2---2------|
    -2---2-2-----2-2-----2-2---2|-2-----2-2-2---2-2---2---2------|
    -2---2-2-----2-2-----2-2---2|-2-----2-2-2---2-2---2---2------|
    -0---0-0-----0-0-----0-0---0|-0-----0-0-0---0-0---0---0------|
    ----------------------------|--------------------------------|

     Begin fade
    -0---0---0-----0-0-----0--0---0--|-0---0---0-0-0-0---0-0--|-0---0-0--0----0-0-|
    -2---2---2-----2-2-----2--2---2--|-2---2---2-2-2-2---2-2--|-2---2-2--2----2-2-|
    -2---2---2-----2-2-----2--2---2--|-2---2---2-2-2-2---2-2--|-2---2-2--2----2-2-|
    -2---2---2-----2-2-----2--2---2--|-2---2---2-2-2-2---2-2--|-2---2-2--2----2-2-|
    -0---0---0-----0-0-----0--0---0--|-0---0---0-0-0-0---0-0--|-0---0-0--0----0-0-|
    ---------------------------------|------------------------|-------------------|

     Fade out
    -0---0-|
    -2---2-|
    -2---2-|
    -2---2-|
    -0---0-|
    -------|

    Note: In order to get the fatty tone sound, I suggest that if you have a wah-wah pedal leave it open.
    Also, Clapton used a Gibson Les Paul and Marshal amp to produce the "woman tone" as he calls it in
    the recording. He turned the tone all the way down for his guitar and setting the amp to full blast.

      La date/heure actuelle est Ven 15 Déc - 4:08:43