Rock506070

Vous n'êtes pas connecté
Rock506070

L'âge d'or de la musique

Coming soon: rock506070's BLOG!

rock506070's BLOG coming soon.

    Led Zeppelin: Since Ive Been Loving You Solo

    Partagez

    bd
    Administrator

    Masculin
    Posts : 323
    Age : 97
    Location : Friar Park
    Appreciation : 7
    Joined : 18/08/2007

    Led Zeppelin: Since Ive Been Loving You Solo

    Message  bd le Lun 24 Nov - 20:35:58

    Spoiler:
    Code:
     solo  :                                         
    --------------------------8-------------------|
    ------------------------8---11h8-11h8----8----|
    ---------------------10b--------------10---10h|
    ----------------------------------------------|
    ----------------------------------------------|
    ----------------------------------------------|


                                                                                               
    --------------------------------------------------------------------------------------------
    --------------------------------------------------------------------------------------------
    --8----8--------------------------------------8---------10h8----10h8----8------------8-10-10
    ----10---10-8h10h8----8---------------------8---10h8-10------10------10---10-10-10----------
    -------------------10---10/8-6h8-6---6-8/10-------------------------------------------------
    -----------------------------------8--------------------------------------------------------


                                                                           
    ---------11-10-8---10-8------------------------------------------------|
    -----8-9---------9------9-9-9-8----------------------------------------|
    --------------------------------10-8-----------------------------------|
    -------------------------------------10-8/6---8h6---6------5h6h5-------|
    --------------------------------------------8-----8---8--8-------8-6/5-|
    -----------------------------------------------------------------------|


                                                           
    ---------------8------------------------------11--13-11-|
    -------------8---11h8---------------------13------------|
    ---------10b----------10-10-8--------8------------------|
    ------------------------------10-10---------------------|
    --------------------------------------------------------|
    --8-----------------------------------------------------|


                                                                 
    --13b-13b-13r-11-13-13-11--13-11-13b-13b--13-13r-11-13-13-11--|
    --------------------------------------------------------------|
    --------------------------------------------------------------|
    --------------------------------------------------------------|
    --------------------------------------------------------------|
    --------------------------------------------------------------|


                                                                       
    ---16-15-13-------------------------------------11-----------------|
    ------------13/-6----8-9-11-8-9-8-----9-11-11b-----11~---13--16-13-|
    ------------------10--------------10-------------------------------|
    -------------------------------------------------------------------|
    -------------------------------------------------------------------|
    -------------------------------------------------------------------|


                                                               
    ------------------------------------------------------------|
    --16r--13-16r--13-16r--13-18b-18b-18b-16-18b-18-18b-16-18b--|
    ------------------------------------------------------------|
    ------------------------------------------------------------|
    ------------------------------------------------------------|
    ------------------------------------------------------------|


                                                                                               
    ---------------8----------------------------------------------------------------------------
    --16---------8---11-8h11h8----8-------------------------------------------------------------
    -----17---10b--------------10---10-8h10h8----8----------------------------------------------
    ------------------------------------------10---10-8h10h8----8-----------------------------8-
    ---------------------------------------------------------10---10-8h10h8----8---------8-10---
    ------------------------------------------------------------------------11---11-8-11--------


                                                                                         
    --------------------------------------------------------------------------------------|
    --11~-11r-11----8------------------------------------------------------------------11-|
    -------------11---11-10-8----8----8-------8-10-8-------10-8-------10--8----8-10/12----|
    --------------------------10---10---10-10--------10-10------10-10-------10------------|
    --------------------------------------------------------------------------------------|
    --------------------------------------------------------------------------------------|


                                                               
    -----10-13-13b---13-10-13-13b13-10-12-10-------------------|
    --11-------------------------------------11-11~-----9--11--|
    -----------------------------------------------------------|
    -----------------------------------------------------------|
    -----------------------------------------------------------|
    -----------------------------------------------------------|


                                                 
    --------11-------11-----13b-13b-13b-13~---13b-|
    --11b-------11b-----11------------------------|
    ----------------------------------------------|
    ----------------------------------------------|
    ----------------------------------------------|
    ----------------------------------------------|


                                                               
    --11--------------8------------------------------11-13--11-|
    -----13~--------8---11h8---------------------13------------|
    -------------10b---------10r-10-8--------------------------|
    ----------------------------------10-10--------------------|
    -----------------------------------------------------------|
    -----------------------------------------------------------|


                                                                                   
    --13b-13b---13--13r-11-13-13-13b---13b-13b-13r-11b-|---------------------------|
    -----------------------------------------------11b-|---------------------------|
    ---------------------------------------------------|--5------------------------|
    ---------------------------------------------------|--5------------------------|
    ---------------------------------------------------|--3------------------------|
    ---------------------------------------------------|---------------------------|

      La date/heure actuelle est Dim 17 Déc - 4:07:29