Rock506070

Vous n'êtes pas connecté
Rock506070

L'âge d'or de la musique

Coming soon: rock506070's BLOG!

rock506070's BLOG coming soon.

    The Beatles - Hold Me tight

    Partagez

    bd
    Administrator

    Masculin
    Posts : 323
    Age : 97
    Location : Friar Park
    Appreciation : 7
    Joined : 18/08/2007

    The Beatles - Hold Me tight

    Message  bd le Ven 14 Sep - 15:52:30

      Hold me tight

      TAB: Hold Me Tight
      MUSIC BY: The Beatles (From the With the Beatles album)
      TABBED BY: The Beatles Central Team (jpgr_beatles@yahoo.com)

      Intro:

      F C7
      It feels alright now
      E|---------------------------------|--------------------------------
      B|---------------------------------|--------------------------------
      G|---------------------------------|--------------------------------
      D|---------------------------------|-2-------2-------2-------2------
      A|-----------------3---3-----------|-3-------3-------3-------3------
      E|-1---1---4---5-----------5---1---|--------------------------------
      ^ ^ ^ ^ ^ ^ ^ ^


      Verse 1:

      F Bb7
      Hold me tight
      E|---------------------------------|--------------------------------
      B|---------------------------------|--------------------------------
      G|---------------------------------|--------------------------------
      D|---------------------------------|-----------------6---6----------
      A|-----------------3---3-----------|---------4---5---8---8---5------
      E|-1---1---4---5-----------5---1---|-/6--6-----------------------1--
      ^ ^ ^ ^ ^ ^ ^ ^
      G7 C7
      Tell me I'm the only one, and
      E|---------------------------------|--------------------------------
      B|---------------------------------|--------------------------------
      G|---------------------------------|-----------------3---3----------
      D|---------------------------------|---------1---2---5---5---5------
      A|---------1---2---5---5---1---2---|-3---3-----------------------3--
      E|-/3--3---------------------------|--------------------------------
      ^ ^ ^ ^ ^ ^ ^ ^
      F Bb7
      then, I might
      E|---------------------------------|--------------------------------
      B|---------------------------------|--------------------------------
      G|---------------------------------|--------------------------------
      D|---------------------------------|-----------------6---6----------
      A|-----------------3---3-----------|---------4---5---8---8---5------
      E|-1---1---4---5-----------5---1---|-/6--6-----------------------1--
      ^ ^ ^ ^ ^ ^ ^ ^
      G7 C7
      Never be the lonely one, so
      E|---------------------------------|--------------------------------
      B|---------------------------------|--------------------------------
      G|---------------------------------|-----------------3---3----------
      D|---------------------------------|---------1---2---5---5---5------
      A|---------1---2---5---5---1---2---|-3---3-----------------------3--
      E|-/3--3---------------------------|--------------------------------
      ^ ^ ^ ^ ^ ^ ^ ^
      F F7
      Hold me tight tonight
      E|---------------------------------|--------------------------------
      B|---------------------------------|--------------------------------
      G|---------------------------------|--------------------------------
      D|---------------------------------|---------------------------------
      A|-----------------3---3-----------|-----------------3---3----------
      E|-1---1---4---5-----------4---5---|-1---1---4---5-----------4---5--
      ^ ^ ^ ^ ^ ^ ^ ^
      Bb Bbm
      tonight It's
      E|---------------------------------|--------------------------------
      B|---------------------------------|--------------------------------
      G|---------------------------------|--------------------------------
      D|-3---3---3---3---3---3---3---3---|-3---3---3---3---3---3---3---3--
      A|-1---1---1---1---1---1---1---1---|-1---1---1---1---1---1---1---1--
      E|---------------------------------|--------------------------------
      ^ ^ ^ ^ ^ ^ ^ ^
      F Bbm
      you You you
      E|---------------------------------|--------------------------------
      B|---------------------------------|--------------------------------
      G|---------------------------------|--------------------------------
      D|---------------------------------|-3---3---3---3---3---3---3---3--
      A|-----------------3---3-----------|-1---1---1---1---1---1---1---1--
      E|-1---1---4---5-----------4---5---|--------------------------------
      ^ ^ ^ ^ ^ ^ ^ ^
      F C7
      you ooh-ooh-ooh-ooh
      E|---------------------------------|--------------------------------
      B|---------------------------------|--------------------------------
      G|---------------------------------|--------------------------------
      D|---------------------------------|-5---5-----------5---X---7---X--
      A|-----------------3---3-----------|-3---3---6---7------------------
      E|-1---1---4---5-----------5---1---|--------------------------------
      ^ ^ ^ ^ ^ ^ ^ ^


      Verse 2:

      F Bb7
      Hold me tight
      E|---------------------------------|--------------------------------
      B|---------------------------------|--------------------------------
      G|---------------------------------|--------------------------------
      D|---------------------------------|-----------------6---6----------
      A|-----------------3---3-----------|---------4---5---8---8---5------
      E|-1---1---4---5-----------5---1---|-/6--6-----------------------1--
      ^ ^ ^ ^ ^ ^ ^ ^
      G7 C7
      Let me go on loving you To-
      E|---------------------------------|--------------------------------
      B|---------------------------------|--------------------------------
      G|---------------------------------|-----------------3---3----------
      D|---------------------------------|---------1---2---5---5---5------
      A|---------1---2---5---5---1---2---|-3---3-----------------------3--
      E|-/3--3---------------------------|--------------------------------
      ^ ^ ^ ^ ^ ^ ^ ^
      F Bb7
      night, tonight
      E|---------------------------------|--------------------------------
      B|---------------------------------|--------------------------------
      G|---------------------------------|--------------------------------
      D|---------------------------------|-----------------6---6----------
      A|-----------------3---3-----------|---------4---5---8---8---5------
      E|-1---1---4---5-----------5---1---|-/6--6-----------------------1--
      ^ ^ ^ ^ ^ ^ ^ ^
      G7 C7
      Making love to only you, so
      E|---------------------------------|--------------------------------
      B|---------------------------------|--------------------------------
      G|---------------------------------|-----------------3---3----------
      D|---------------------------------|---------1---2---5---5---5------
      A|---------1---2---5---5---1---2---|-3---3-----------------------3--

      E|-/3--3---------------------------|--------------------------------
      ^ ^ ^ ^ ^ ^ ^ ^
      F F7
      Hold me tight tonight
      E|---------------------------------|--------------------------------
      B|---------------------------------|--------------------------------
      G|---------------------------------|--------------------------------
      D|---------------------------------|---------------------------------
      A|-----------------3---3-----------|-----------------3---3----------
      E|-1---1---4---5-----------4---5---|-1---1---4---5-----------4---5--
      ^ ^ ^ ^ ^ ^ ^ ^
      Bb Bbm
      tonight It's
      E|---------------------------------|--------------------------------
      B|---------------------------------|--------------------------------
      G|---------------------------------|--------------------------------
      D|-3---3---3---3---3---3---3---3---|-3---3---3---3---3---3---3---3--
      A|-1---1---1---1---1---1---1---1---|-1---1---1---1---1---1---1---1--
      E|---------------------------------|--------------------------------
      ^ ^ ^ ^ ^ ^ ^ ^
      F Bbm
      you You you
      E|---------------------------------|--------------------------------
      B|---------------------------------|--------------------------------
      G|---------------------------------|--------------------------------
      D|---------------------------------|-3---3---3---3---3---3---3---3--
      A|-----------------3---3-----------|-1---1---1---1---1---1---1---1--
      E|-1---1---4---5-----------4---5---|--------------------------------
      ^ ^ ^ ^ ^ ^ ^ ^
      F C7
      you ooh-ooh-ooh-ooh Don't
      E|---------------------------------|--------------------------------
      B|---------------------------------|--------------------------------
      G|---------------------------------|--------------------------------
      D|---------------------------------|--------------------------------
      A|-----------------3---3-----------|---------2---3---6-------3------
      E|-1---1---4---5-----------5---1---|-4---4---------------4------X---
      ^ ^ ^ ^ ^ ^ ^ ^

      Bb Bbm
      tonight It's
      E|---------------------------------|--------------------------------
      B|---------------------------------|--------------------------------
      G|---------------------------------|--------------------------------
      D|-3---3---3---3---3---3---3---3---|-3---3---3---3---3---3---3---3--
      A|-1---1---1---1---1---1---1---1---|-1---1---1---1---1---1---1---1--
      E|---------------------------------|--------------------------------
      ^ ^ ^ ^ ^ ^ ^ ^
      F Bbm
      you You you
      E|---------------------------------|--------------------------------
      B|---------------------------------|--------------------------------
      G|---------------------------------|--------------------------------
      D|---------------------------------|-3---3---3---3---3---3---3---3--
      A|-----------------3---3-----------|-1---1---1---1---1---1---1---1--
      E|-1---1---4---5-----------4---5---|--------------------------------
      ^ ^ ^ ^ ^ ^ ^ ^
      F Ab
      you ooh-ooh-ooh-ooh ooh
      E|---------------------------------|--------------------------------
      B|---------------------------------|--------------------------------
      G|---------------------------------|--------------------------------
      D|---------------------------------|--------------------------------
      A|-----------------3---3-----------|---------2---3---6---6---3------
      E|-1---1---4---5-----------5---1---|-4---4-----------------------4--
      ^ ^ ^ ^ ^ ^ ^ ^
      F Ab
      ooh You ooh
      E|---------------------------------|--------------------------------
      B|---------------------------------|--------------------------------
      G|---------------------------------|--------------------------------
      D|---------------------------------|--------------------------------
      A|-----------------3---3-----------|---------2---3---6---6---3------
      E|-1---1---4---5-----------5---1---|-4---4-----------------------4--
      ^ ^ ^ ^ ^ ^ ^ ^
      F
      ooh
      E|---------------------------------|
      B|---------------------------------|
      G|---------------------------------|
      D|---------------------------------|
      A|-3-------------------------------|
      E|-1-------------------------------|
      ^ ^ ^ ^

      La date/heure actuelle est Jeu 24 Aoû - 1:01:30